  0
SECTION
  2
HEADER
  9
$ACADVER
  1
AC1015
  9
$ACADMAINTVER
 70
     6
  9
$DWGCODEPAGE
  3
ANSI_1254
  9
$INSBASE
 10
0.0
 20
0.0
 30
0.0
  9
$EXTMIN
 10
0.0
 20
0.0
 30
0.0
  9
$EXTMAX
 10
279.4
 20
215.9
 30
0.0
  9
$LIMMIN
 10
0.0
 20
0.0
  9
$LIMMAX
 10
279.4
 20
215.9
  9
$ORTHOMODE
 70
     0
  9
$REGENMODE
 70
     1
  9
$FILLMODE
 70
     1
  9
$QTEXTMODE
 70
     0
  9
$MIRRTEXT
 70
     1
  9
$LTSCALE
 40
1.0
  9
$ATTMODE
 70
     1
  9
$TEXTSIZE
 40
3.5
  9
$TRACEWID
 40
1.0
  9
$TEXTSTYLE
  7
Standard
  9
$CLAYER
  8
0
  9
$CELTYPE
  6
ByLayer
  9
$CECOLOR
 62
   256
  9
$CELTSCALE
 40
1.0
  9
$DISPSILH
 70
     0
  9
$DIMSCALE
 40
1.0
  9
$DIMASZ
 40
3.5
  9
$DIMEXO
 40
1.0
  9
$DIMDLI
 40
3.75
  9
$DIMRND
 40
0.0
  9
$DIMDLE
 40
0.0
  9
$DIMEXE
 40
1.0
  9
$DIMTP
 40
0.0
  9
$DIMTM
 40
0.0
  9
$DIMTXT
 40
3.5
  9
$DIMCEN
 40
2.5
  9
$DIMTSZ
 40
0.0
  9
$DIMTOL
 70
     0
  9
$DIMLIM
 70
     0
  9
$DIMTIH
 70
     1
  9
$DIMTOH
 70
     1
  9
$DIMSE1
 70
     0
  9
$DIMSE2
 70
     0
  9
$DIMTAD
 70
     1
  9
$DIMZIN
 70
     0
  9
$DIMBLK
  1

  9
$DIMASO
 70
     1
  9
$DIMSHO
 70
     1
  9
$DIMPOST
  1

  9
$DIMAPOST
  1

  9
$DIMALT
 70
     0
  9
$DIMALTD
 70
     3
  9
$DIMALTF
 40
0.0393700787
  9
$DIMLFAC
 40
1.0
  9
$DIMTOFL
 70
     1
  9
$DIMTVP
 40
0.0
  9
$DIMTIX
 70
     0
  9
$DIMSOXD
 70
     0
  9
$DIMSAH
 70
     0
  9
$DIMBLK1
  1

  9
$DIMBLK2
  1

  9
$DIMSTYLE
  2
ISO-25
  9
$DIMCLRD
 70
     0
  9
$DIMCLRE
 70
     0
  9
$DIMCLRT
 70
     0
  9
$DIMTFAC
 40
1.0
  9
$DIMGAP
 40
1.524
  9
$DIMJUST
 70
     0
  9
$DIMSD1
 70
     0
  9
$DIMSD2
 70
     0
  9
$DIMTOLJ
 70
     0
  9
$DIMTZIN
 70
     0
  9
$DIMALTZ
 70
     0
  9
$DIMALTTZ
 70
     0
  9
$DIMUPT
 70
     0
  9
$DIMDEC
 70
     2
  9
$DIMTDEC
 70
     2
  9
$DIMALTU
 70
     2
  9
$DIMALTTD
 70
     3
  9
$DIMTXSTY
  7
Standard
  9
$DIMAUNIT
 70
     0
  9
$DIMADEC
 70
     2
  9
$DIMALTRND
 40
0.0
  9
$DIMAZIN
 70
     0
  9
$DIMDSEP
 70
    44
  9
$DIMATFIT
 70
     3
  9
$DIMFRAC
 70
     0
  9
$DIMLDRBLK
  1

  9
$DIMLUNIT
 70
     2
  9
$DIMLWD
 70
    -2
  9
$DIMLWE
 70
    -2
  9
$DIMTMOVE
 70
     0
  9
$LUNITS
 70
     2
  9
$LUPREC
 70
     2
  9
$SKETCHINC
 40
1.0
  9
$FILLETRAD
 40
10.0
  9
$AUNITS
 70
     0
  9
$AUPREC
 70
     2
  9
$MENU
  1
.
  9
$ELEVATION
 40
0.0
  9
$PELEVATION
 40
0.0
  9
$THICKNESS
 40
0.0
  9
$LIMCHECK
 70
     0
  9
$CHAMFERA
 40
0.0
  9
$CHAMFERB
 40
0.0
  9
$CHAMFERC
 40
0.0
  9
$CHAMFERD
 40
0.0
  9
$SKPOLY
 70
     0
  9
$TDCREATE
 40
2458985.698806806
  9
$TDUCREATE
 40
2458985.573806806
  9
$TDUPDATE
 40
2458985.698807106
  9
$TDUUPDATE
 40
2458985.573807106
  9
$TDINDWG
 40
0.0000000116
  9
$TDUSRTIMER
 40
0.0000000116
  9
$USRTIMER
 70
     1
  9
$ANGBASE
 50
0.0
  9
$ANGDIR
 70
     0
  9
$PDMODE
 70
     0
  9
$PDSIZE
 40
-1.0
  9
$PLINEWID
 40
0.0
  9
$SPLFRAME
 70
     0
  9
$SPLINETYPE
 70
     6
  9
$SPLINESEGS
 70
     8
  9
$HANDSEED
  5
ED
  9
$SURFTAB1
 70
     6
  9
$SURFTAB2
 70
     6
  9
$SURFTYPE
 70
     6
  9
$SURFU
 70
     6
  9
$SURFV
 70
     6
  9
$UCSBASE
  2

  9
$UCSNAME
  2

  9
$UCSORG
 10
0.0
 20
0.0
 30
0.0
  9
$UCSXDIR
 10
1.0
 20
0.0
 30
0.0
  9
$UCSYDIR
 10
0.0
 20
1.0
 30
0.0
  9
$UCSORTHOREF
  2

  9
$UCSORTHOVIEW
 70
     0
  9
$UCSORGTOP
 10
0.0
 20
0.0
 30
0.0
  9
$UCSORGBOTTOM
 10
0.0
 20
0.0
 30
0.0
  9
$UCSORGLEFT
 10
0.0
 20
0.0
 30
0.0
  9
$UCSORGRIGHT
 10
0.0
 20
0.0
 30
0.0
  9
$UCSORGFRONT
 10
0.0
 20
0.0
 30
0.0
  9
$UCSORGBACK
 10
0.0
 20
0.0
 30
0.0
  9
$PUCSBASE
  2

  9
$PUCSNAME
  2

  9
$PUCSORG
 10
0.0
 20
0.0
 30
0.0
  9
$PUCSXDIR
 10
1.0
 20
0.0
 30
0.0
  9
$PUCSYDIR
 10
0.0
 20
1.0
 30
0.0
  9
$PUCSORTHOREF
  2

  9
$PUCSORTHOVIEW
 70
     0
  9
$PUCSORGTOP
 10
0.0
 20
0.0
 30
0.0
  9
$PUCSORGBOTTOM
 10
0.0
 20
0.0
 30
0.0
  9
$PUCSORGLEFT
 10
0.0
 20
0.0
 30
0.0
  9
$PUCSORGRIGHT
 10
0.0
 20
0.0
 30
0.0
  9
$PUCSORGFRONT
 10
0.0
 20
0.0
 30
0.0
  9
$PUCSORGBACK
 10
0.0
 20
0.0
 30
0.0
  9
$USERI1
 70
     0
  9
$USERI2
 70
     0
  9
$USERI3
 70
     0
  9
$USERI4
 70
     0
  9
$USERI5
 70
     0
  9
$USERR1
 40
0.0
  9
$USERR2
 40
0.0
  9
$USERR3
 40
0.0
  9
$USERR4
 40
0.0
  9
$USERR5
 40
0.0
  9
$WORLDVIEW
 70
     1
  9
$SHADEDGE
 70
     3
  9
$SHADEDIF
 70
    70
  9
$TILEMODE
 70
     1
  9
$MAXACTVP
 70
    64
  9
$PINSBASE
 10
0.0
 20
0.0
 30
0.0
  9
$PLIMCHECK
 70
     0
  9
$PEXTMIN
 10
1.0000000000E+20
 20
1.0000000000E+20
 30
1.0000000000E+20
  9
$PEXTMAX
 10
-1.0000000000E+20
 20
-1.0000000000E+20
 30
-1.0000000000E+20
  9
$PLIMMIN
 10
0.0
 20
0.0
  9
$PLIMMAX
 10
420.0
 20
297.0
  9
$UNITMODE
 70
     0
  9
$VISRETAIN
 70
     1
  9
$PLINEGEN
 70
     0
  9
$PSLTSCALE
 70
     1
  9
$TREEDEPTH
 70
  3020
  9
$CMLSTYLE
  2
Standard
  9
$CMLJUST
 70
     0
  9
$CMLSCALE
 40
20.0
  9
$PROXYGRAPHICS
 70
     1
  9
$MEASUREMENT
 70
     1
  9
$CELWEIGHT
370
    -1
  9
$ENDCAPS
280
     0
  9
$JOINSTYLE
280
     0
  9
$LWDISPLAY
290
     1
  9
$INSUNITS
 70
     4
  9
$HYPERLINKBASE
  1

  9
$STYLESHEET
  1

  9
$XEDIT
290
     1
  9
$CEPSNTYPE
380
     0
  9
$PSTYLEMODE
290
     1
  9
$FINGERPRINTGUID
  2
{35239bf6-3a97-4655-8fce-2daff2f6116a}
  9
$VERSIONGUID
  2
{FAEB1C32-E019-11D5-929B-00C0DF256EC4}
  9
$EXTNAMES
290
     1
  9
$PSVPSCALE
 40
0.0
  9
$OLESTARTUP
290
     0
  0
ENDSEC
  0
SECTION
  2
CLASSES
  0
CLASS
  1
ACDBDICTIONARYWDFLT
  2
AcDbDictionaryWithDefault
  3
ObjectDBX Classes
 90
        0
280
     0
281
     0
  0
CLASS
  1
VISUALSTYLE
  2
AcDbVisualStyle
  3
ObjectDBX Classes
 90
     4095
280
     0
281
     0
  0
CLASS
  1
MATERIAL
  2
AcDbMaterial
  3
ObjectDBX Classes
 90
     1153
280
     0
281
     0
  0
CLASS
  1
SCALE
  2
AcDbScale
  3
ObjectDBX Classes
 90
     1153
280
     0
281
     0
  0
CLASS
  1
TABLESTYLE
  2
AcDbTableStyle
  3
ObjectDBX Classes
 90
     4095
280
     0
281
     0
  0
CLASS
  1
MLEADERSTYLE
  2
AcDbMLeaderStyle
  3
ACDB_MLEADERSTYLE_CLASS
 90
     4095
280
     0
281
     0
  0
CLASS
  1
SUN
  2
AcDbSun
  3
SCENEOE
 90
     1153
280
     0
281
     0
  0
CLASS
  1
ACDBPLACEHOLDER
  2
AcDbPlaceHolder
  3
ObjectDBX Classes
 90
        0
280
     0
281
     0
  0
CLASS
  1
LAYOUT
  2
AcDbLayout
  3
ObjectDBX Classes
 90
        0
280
     0
281
     0
  0
ENDSEC
  0
SECTION
  2
TABLES
  0
TABLE
  2
VPORT
  5
8
330
0
100
AcDbSymbolTable
 70
     1
  0
VPORT
  5
29
330
8
100
AcDbSymbolTableRecord
100
AcDbViewportTableRecord
  2
*Active
 70
     0
 10
0.0
 20
0.0
 11
1.0
 21
1.0
 12
139.7
 22
107.95
 13
0.0
 23
0.0
 14
10.0
 24
10.0
 15
10.0
 25
10.0
 16
0.0
 26
0.0
 36
1.0
 17
0.0
 27
0.0
 37
0.0
 40
215.9
 41
1.2941176471
 42
50.0
 43
0.0
 44
0.0
 50
0.0
 51
0.0
 71
     0
 72
  2000
 73
     1
 74
     3
 75
     0
 76
     0
 77
     0
 78
     0
281
     0
 65
     1
110
0.0
120
0.0
130
0.0
111
1.0
121
0.0
131
0.0
112
0.0
122
1.0
132
0.0
 79
     0
146
0.0
  0
ENDTAB
  0
TABLE
  2
LTYPE
  5
5
330
0
100
AcDbSymbolTable
 70
     6
  0
LTYPE
  5
14
330
5
100
AcDbSymbolTableRecord
100
AcDbLinetypeTableRecord
  2
ByBlock
 70
     0
  3

 72
    65
 73
     0
 40
0.0
  0
LTYPE
  5
15
330
5
100
AcDbSymbolTableRecord
100
AcDbLinetypeTableRecord
  2
ByLayer
 70
     0
  3

 72
    65
 73
     0
 40
0.0
  0
LTYPE
  5
16
330
5
100
AcDbSymbolTableRecord
100
AcDbLinetypeTableRecord
  2
Continuous
 70
     0
  3
Solid line
 72
    65
 73
     0
 40
0.0
  0
LTYPE
  5
6E
330
5
100
AcDbSymbolTableRecord
100
AcDbLinetypeTableRecord
  2
HIDDEN
 70
     0
  3
Hidden __ __ __ __ __ __ __ __ __ __ __ __ __ __
 72
    65
 73
     2
 40
1.905
 49
1.27
 74
     0
 49
-0.635
 74
     0
  0
LTYPE
  5
6F
330
5
100
AcDbSymbolTableRecord
100
AcDbLinetypeTableRecord
  2
PHANTOM
 70
     0
  3
Phantom ______  __  __  ______  __  __  ______
 72
    65
 73
     6
 40
12.7
 49
6.35
 74
     0
 49
-1.27
 74
     0
 49
1.27
 74
     0
 49
-1.27
 74
     0
 49
1.27
 74
     0
 49
-1.27
 74
     0
  0
LTYPE
  5
70
330
5
100
AcDbSymbolTableRecord
100
AcDbLinetypeTableRecord
  2
CENTER
 70
     0
  3
Center ____ _ ____ _ ____ _ ____ _ ____ _ ____
 72
    65
 73
     4
 40
10.16
 49
6.35
 74
     0
 49
-1.27
 74
     0
 49
1.27
 74
     0
 49
-1.27
 74
     0
  0
LTYPE
  5
71
330
5
100
AcDbSymbolTableRecord
100
AcDbLinetypeTableRecord
  2
CENTERX2
 70
     0
  3
Center (2x) ________  __  ________  __  _____
 72
    65
 73
     4
 40
20.32
 49
12.7
 74
     0
 49
-2.54
 74
     0
 49
2.54
 74
     0
 49
-2.54
 74
     0
  0
LTYPE
  5
72
330
5
100
AcDbSymbolTableRecord
100
AcDbLinetypeTableRecord
  2
DOT2
 70
     0
  3
Dot (.5x) ........................................
 72
    65
 73
     2
 40
0.635
 49
0.0
 74
     0
 49
-0.635
 74
     0
  0
ENDTAB
  0
TABLE
  2
LAYER
  5
2
330
0
100
AcDbSymbolTable
 70
    17
  0
LAYER
  5
10
330
2
100
AcDbSymbolTableRecord
100
AcDbLayerTableRecord
  2
0
 70
     0
 62
     7
  6
Continuous
370
    -3
390
F
  0
LAYER
  5
73
330
2
100
AcDbSymbolTableRecord
100
AcDbLayerTableRecord
  2
FORMAT
 70
     0
 62
     7
  6
Continuous
370
    -3
390
F
  0
LAYER
  5
74
330
2
100
AcDbSymbolTableRecord
100
AcDbLayerTableRecord
  2
YARDIMCI_GEOMETRI
 70
     0
 62
    -6
  6
Continuous
290
     0
370
    -3
390
F
  0
LAYER
  5
75
330
2
100
AcDbSymbolTableRecord
100
AcDbLayerTableRecord
  2
SAYFA_CERCEVESI
 70
     0
 62
     7
  6
Continuous
370
    25
390
F
  0
LAYER
  5
76
330
2
100
AcDbSymbolTableRecord
100
AcDbLayerTableRecord
  2
ANTET
 70
     0
 62
     7
  6
Continuous
370
    -3
390
F
  0
LAYER
  5
77
330
2
100
AcDbSymbolTableRecord
100
AcDbLayerTableRecord
  2
OLCU
 70
     0
 62
   150
  6
Continuous
370
    -3
390
F
  0
LAYER
  5
78
330
2
100
AcDbSymbolTableRecord
100
AcDbLayerTableRecord
  2
METIN
 70
     0
 62
    96
  6
Continuous
370
    -3
390
F
  0
LAYER
  5
79
330
2
100
AcDbSymbolTableRecord
100
AcDbLayerTableRecord
  2
BALON
 70
     0
 62
     5
  6
Continuous
370
    -3
390
F
  0
LAYER
  5
7A
330
2
100
AcDbSymbolTableRecord
100
AcDbLayerTableRecord
  2
VURGU
 70
     0
 62
     7
  6
Continuous
370
    -3
390
F
  0
LAYER
  5
7B
330
2
100
AcDbSymbolTableRecord
100
AcDbLayerTableRecord
  2
SILIK
 70
     0
 62
     7
  6
Continuous
370
    -3
390
F
  0
LAYER
  5
7C
330
2
100
AcDbSymbolTableRecord
100
AcDbLayerTableRecord
  2
MODEL
 70
     0
 62
     7
  6
Continuous
370
    -3
390
F
  0
LAYER
  5
7D
330
2
100
AcDbSymbolTableRecord
100
AcDbLayerTableRecord
  2
DETAYLANDıRMA
 70
     0
 62
   190
  6
Continuous
370
    -3
390
F
  0
LAYER
  5
7E
330
2
100
AcDbSymbolTableRecord
100
AcDbLayerTableRecord
  2
TOLERANS
 70
     0
 62
   230
  6
Continuous
370
    -3
390
F
  0
LAYER
  5
7F
330
2
100
AcDbSymbolTableRecord
100
AcDbLayerTableRecord
  2
MERKEZ_CIZGILERI
 70
     0
 62
    30
  6
Continuous
370
    -3
390
F
  0
LAYER
  5
80
330
2
100
AcDbSymbolTableRecord
100
AcDbLayerTableRecord
  2
KESIT-DETAY_CIZGILERI
 70
     0
 62
     7
  6
Continuous
370
    -3
390
F
  0
LAYER
  5
81
330
2
100
AcDbSymbolTableRecord
100
AcDbLayerTableRecord
  2
\U+041E\U+0421\U+0415\U+0412\U+042B\U+0415
 70
     0
 62
     7
  6
Continuous
370
    -3
390
F
  0
LAYER
  5
82
330
2
100
AcDbSymbolTableRecord
100
AcDbLayerTableRecord
  2
\U+0412\U+041E\U+0414\U+042F\U+041D\U+042B\U+0415_\U+0417\U+041D\U+0410\U+041A\U+0418
 70
     0
 62
    11
  6
Continuous
370
    -3
390
F
  0
ENDTAB
  0
TABLE
  2
STYLE
  5
3
330
0
100
AcDbSymbolTable
 70
     1
  0
STYLE
  5
11
330
3
100
AcDbSymbolTableRecord
100
AcDbTextStyleTableRecord
  2
Standard
 70
     0
 40
0.0
 41
1.0
 50
0.0
 71
     0
 42
3.5
  3
txt
  4

  0
ENDTAB
  0
TABLE
  2
VIEW
  5
6
330
0
100
AcDbSymbolTable
 70
     0
  0
ENDTAB
  0
TABLE
  2
UCS
  5
7
330
0
100
AcDbSymbolTable
 70
     0
  0
ENDTAB
  0
TABLE
  2
APPID
  5
9
330
0
100
AcDbSymbolTable
 70
     1
  0
APPID
  5
12
330
9
100
AcDbSymbolTableRecord
100
AcDbRegAppTableRecord
  2
ACAD
 70
     0
  0
ENDTAB
  0
TABLE
  2
DIMSTYLE
  5
A
330
0
100
AcDbSymbolTable
 70
     1
100
AcDbDimStyleTable
  0
DIMSTYLE
105
27
330
A
100
AcDbSymbolTableRecord
100
AcDbDimStyleTableRecord
  2
ISO-25
 70
     0
 41
2.5
 42
0.625
 43
3.75
 44
1.25
 73
     0
 74
     0
 77
     1
 78
     8
140
2.5
141
2.5
143
0.0393700787
147
0.625
171
     3
172
     1
178
     0
271
     2
272
     2
274
     3
278
    44
283
     0
284
     8
340
11
  0
ENDTAB
  0
TABLE
  2
BLOCK_RECORD
  5
1
330
0
100
AcDbSymbolTable
 70
     2
  0
BLOCK_RECORD
  5
1F
330
1
100
AcDbSymbolTableRecord
100
AcDbBlockTableRecord
  2
*Model_Space
340
22
  0
BLOCK_RECORD
  5
1B
330
1
100
AcDbSymbolTableRecord
100
AcDbBlockTableRecord
  2
*Paper_Space
340
1E
  0
BLOCK_RECORD
  5
23
330
1
100
AcDbSymbolTableRecord
100
AcDbBlockTableRecord
  2
*Paper_Space0
340
26
  0
BLOCK_RECORD
  5
88
330
1
100
AcDbSymbolTableRecord
100
AcDbBlockTableRecord
  2
SW_CENTERMARKSYMBOL_0
340
0
102
{BLKREFS
331
93
102
}
  0
ENDTAB
  0
ENDSEC
  0
SECTION
  2
BLOCKS
  0
BLOCK
  5
20
330
1F
100
AcDbEntity
  8
0
100
AcDbBlockBegin
  2
*Model_Space
 70
     0
 10
0.0
 20
0.0
 30
0.0
  3
*Model_Space
  1

  0
ENDBLK
  5
21
330
1F
100
AcDbEntity
  8
0
100
AcDbBlockEnd
  0
BLOCK
  5
1C
330
1B
100
AcDbEntity
 67
     1
  8
0
100
AcDbBlockBegin
  2
*Paper_Space
 70
     0
 10
0.0
 20
0.0
 30
0.0
  3
*Paper_Space
  1

  0
ENDBLK
  5
1D
330
1B
100
AcDbEntity
 67
     1
  8
0
100
AcDbBlockEnd
  0
BLOCK
  5
24
330
23
100
AcDbEntity
  8
0
100
AcDbBlockBegin
  2
*Paper_Space0
 70
     0
 10
0.0
 20
0.0
 30
0.0
  3
*Paper_Space0
  1

  0
ENDBLK
  5
25
330
23
100
AcDbEntity
  8
0
100
AcDbBlockEnd
  0
BLOCK
  5
89
330
88
100
AcDbEntity
  8
0
100
AcDbBlockBegin
  2
SW_CENTERMARKSYMBOL_0
 70
     0
 10
0.0
 20
0.0
 30
0.0
  3
SW_CENTERMARKSYMBOL_0
  1

  0
LINE
  5
8B
330
88
100
AcDbEntity
  8
FORMAT
 62
     0
100
AcDbLine
 10
0.0
 20
0.0
 30
0.0
 11
0.0
 21
2.5
 31
0.0
  0
LINE
  5
8C
330
88
100
AcDbEntity
  8
FORMAT
 62
     0
100
AcDbLine
 10
0.0
 20
0.0
 30
0.0
 11
-2.5
 21
0.0
 31
0.0
  0
LINE
  5
8D
330
88
100
AcDbEntity
  8
FORMAT
 62
     0
100
AcDbLine
 10
0.0
 20
0.0
 30
0.0
 11
0.0
 21
-2.5
 31
0.0
  0
LINE
  5
8E
330
88
100
AcDbEntity
  8
FORMAT
 62
     0
100
AcDbLine
 10
0.0
 20
0.0
 30
0.0
 11
2.5
 21
0.0
 31
0.0
  0
LINE
  5
8F
330
88
100
AcDbEntity
  8
FORMAT
 62
     0
100
AcDbLine
 10
0.0
 20
5.0
 30
0.0
 11
0.0
 21
40.0
 31
0.0
  0
LINE
  5
90
330
88
100
AcDbEntity
  8
FORMAT
 62
     0
100
AcDbLine
 10
-5.0
 20
0.0
 30
0.0
 11
-40.0
 21
0.0
 31
0.0
  0
LINE
  5
91
330
88
100
AcDbEntity
  8
FORMAT
 62
     0
100
AcDbLine
 10
0.0
 20
-5.0
 30
0.0
 11
0.0
 21
-40.0
 31
0.0
  0
LINE
  5
92
330
88
100
AcDbEntity
  8
FORMAT
 62
     0
100
AcDbLine
 10
5.0
 20
0.0
 30
0.0
 11
40.0
 21
0.0
 31
0.0
  0
ENDBLK
  5
8A
330
88
100
AcDbEntity
  8
0
100
AcDbBlockEnd
  0
ENDSEC
  0
SECTION
  2
ENTITIES
  0
CIRCLE
  5
83
330
1F
100
AcDbEntity
  8
0
  6
Continuous
 62
     7
370
    25
100
AcDbCircle
 10
139.395004093
 20
107.5851680021
 30
0.0
 40
37.50000000000001
  0
CIRCLE
  5
84
330
1F
100
AcDbEntity
  8
0
  6
Continuous
 62
     7
370
    25
100
AcDbCircle
 10
139.395004093
 20
107.5851680021
 30
0.0
 40
30.7
  0
CIRCLE
  5
85
330
1F
100
AcDbEntity
  8
0
  6
Continuous
 62
     7
370
    25
100
AcDbCircle
 10
139.395004093
 20
107.5851680021
 30
0.0
 40
30.36780133962553
  0
CIRCLE
  5
86
330
1F
100
AcDbEntity
  8
0
  6
Continuous
 62
     7
370
    25
100
AcDbCircle
 10
139.395004093
 20
107.5851680021
 30
0.0
 40
13.33219866037447
  0
CIRCLE
  5
87
330
1F
100
AcDbEntity
  8
0
  6
Continuous
 62
     7
370
    25
100
AcDbCircle
 10
139.395004093
 20
107.5851680021
 30
0.0
 40
13.00000000000001
  0
INSERT
  5
93
330
1F
100
AcDbEntity
  8
FORMAT
 62
     7
100
AcDbBlockReference
  2
SW_CENTERMARKSYMBOL_0
 10
139.395004093
 20
107.5851680021
 30
0.0
  0
ARC
  5
94
330
1F
100
AcDbEntity
  8
0
  6
Continuous
 62
     7
370
    25
100
AcDbCircle
 10
-45.4762089793
 20
143.0851680021
 30
0.0
 40
2.000000000000028
100
AcDbArc
 50
68.9967772886
 51
90.0
  0
ARC
  5
95
330
1F
100
AcDbEntity
  8
0
  6
Continuous
 62
     7
370
    25
100
AcDbCircle
 10
-45.4762089793
 20
72.0851680021
 30
0.0
 40
2.0
100
AcDbArc
 50
270.0
 51
291.0032227114
  0
LINE
  5
96
330
1F
100
AcDbEntity
  8
0
  6
Continuous
 62
     7
370
    25
100
AcDbLine
 10
-45.4762084036
 20
145.0851694922
 30
0.0
 11
-115.1054752617
 21
145.0851694922
 31
0.0
  0
LINE
  5
97
330
1F
100
AcDbEntity
  8
0
  6
Continuous
 62
     7
370
    25
100
AcDbLine
 10
-115.1054752617
 20
70.085166512
 30
0.0
 11
-45.4762084036
 21
70.085166512
 31
0.0
  0
LINE
  5
98
330
1F
100
AcDbEntity
  8
0
  6
Continuous
 62
     7
370
    25
100
AcDbLine
 10
-44.7593675553
 20
70.2180476169
 30
0.0
 11
10.5484212191
 21
91.4522879999
 31
0.0
  0
LINE
  5
99
330
1F
100
AcDbEntity
  8
0
  6
Continuous
 62
     7
370
    25
100
AcDbLine
 10
10.5484212191
 20
123.7180480044
 30
0.0
 11
-44.7593675553
 21
144.9522883873
 31
0.0
  0
ARC
  5
9A
330
1F
100
AcDbEntity
  8
0
  6
Continuous
 62
     7
370
    25
100
AcDbCircle
 10
11.2652635591
 20
125.5851680021
 30
0.0
 40
2.000000000000007
100
AcDbArc
 50
248.9967772886
 51
270.0
  0
ARC
  5
9B
330
1F
100
AcDbEntity
  8
0
  6
Continuous
 62
     7
370
    25
100
AcDbCircle
 10
11.2652635591
 20
89.5851680021
 30
0.0
 40
2.000000000000028
100
AcDbArc
 50
90.0
 51
111.0032227114
  0
LINE
  5
9C
330
1F
100
AcDbEntity
  8
0
  6
Continuous
 62
     7
370
    25
100
AcDbLine
 10
54.8945265264
 20
123.5851687621
 30
0.0
 11
11.2652639301
 21
123.5851687621
 31
0.0
  0
LINE
  5
9D
330
1F
100
AcDbEntity
  8
0
  6
Continuous
 62
     7
370
    25
100
AcDbLine
 10
11.2652639301
 20
91.5851672422
 30
0.0
 11
54.8945265264
 21
91.5851672422
 31
0.0
  0
LINE
  5
9E
330
1F
100
AcDbEntity
  8
0
  6
Continuous
 62
     7
370
    25
100
AcDbLine
 10
-115.1054752617
 20
145.0851694922
 30
0.0
 11
-115.1054752617
 21
70.085166512
 31
0.0
  0
LINE
  5
9F
330
1F
100
AcDbEntity
  8
0
  6
Continuous
 62
     7
370
    25
100
AcDbLine
 10
54.8945265264
 20
123.5851687621
 30
0.0
 11
54.8945265264
 21
91.5851672422
 31
0.0
  0
LINE
  5
A0
330
1F
100
AcDbEntity
  8
0
  6
Continuous
 62
     1
370
    25
100
AcDbLine
 10
-44.7593675553
 20
144.9522883873
 30
0.0
 11
-44.7593675553
 21
70.2180476169
 31
0.0
  0
LINE
  5
A1
330
1F
100
AcDbEntity
  8
0
  6
Continuous
 62
     1
370
    25
100
AcDbLine
 10
-45.4762084036
 20
145.0851694922
 30
0.0
 11
-45.4762084036
 21
70.085166512
 31
0.0
  0
LINE
  5
A2
330
1F
100
AcDbEntity
  8
0
  6
Continuous
 62
     1
370
    25
100
AcDbLine
 10
10.5484212191
 20
123.7180480044
 30
0.0
 11
10.5484212191
 21
91.4522879999
 31
0.0
  0
LINE
  5
A3
330
1F
100
AcDbEntity
  8
0
  6
Continuous
 62
     1
370
    25
100
AcDbLine
 10
11.2652639301
 20
123.5851687621
 30
0.0
 11
11.2652639301
 21
91.5851672422
 31
0.0
  0
ARC
  5
A4
330
1F
100
AcDbEntity
  8
0
  6
Continuous
 62
     7
370
    25
100
AcDbCircle
 10
329.5602229352
 20
72.0851680021
 30
0.0
 40
2.000000000000006
100
AcDbArc
 50
248.9967772886
 51
270.0
  0
ARC
  5
A5
330
1F
100
AcDbEntity
  8
0
  6
Continuous
 62
     7
370
    25
100
AcDbCircle
 10
329.5602229352
 20
143.0851680021
 30
0.0
 40
2.000000000000028
100
AcDbArc
 50
90.0
 51
111.0032227114
  0
LINE
  5
A6
330
1F
100
AcDbEntity
  8
0
  6
Continuous
 62
     7
370
    25
100
AcDbLine
 10
329.5602223595
 20
70.085166512
 30
0.0
 11
399.1894892176
 21
70.085166512
 31
0.0
  0
LINE
  5
A7
330
1F
100
AcDbEntity
  8
0
  6
Continuous
 62
     7
370
    25
100
AcDbLine
 10
399.1894892176
 20
145.0851694922
 30
0.0
 11
329.5602223595
 21
145.0851694922
 31
0.0
  0
LINE
  5
A8
330
1F
100
AcDbEntity
  8
0
  6
Continuous
 62
     7
370
    25
100
AcDbLine
 10
328.8433815112
 20
144.9522883873
 30
0.0
 11
273.5355927368
 21
123.7180480044
 31
0.0
  0
LINE
  5
A9
330
1F
100
AcDbEntity
  8
0
  6
Continuous
 62
     7
370
    25
100
AcDbLine
 10
273.5355927368
 20
91.4522879999
 30
0.0
 11
328.8433815112
 21
70.2180476169
 31
0.0
  0
ARC
  5
AA
330
1F
100
AcDbEntity
  8
0
  6
Continuous
 62
     7
370
    25
100
AcDbCircle
 10
272.8187503968
 20
89.5851680021
 30
0.0
 40
2.000000000000032
100
AcDbArc
 50
68.9967772886
 51
90.0
  0
ARC
  5
AB
330
1F
100
AcDbEntity
  8
0
  6
Continuous
 62
     7
370
    25
100
AcDbCircle
 10
272.8187503968
 20
125.5851680021
 30
0.0
 40
2.000000000000019
100
AcDbArc
 50
270.0
 51
291.0032227114
  0
LINE
  5
AC
330
1F
100
AcDbEntity
  8
0
  6
Continuous
 62
     7
370
    25
100
AcDbLine
 10
229.1894874295
 20
91.5851672422
 30
0.0
 11
272.8187500258
 21
91.5851672422
 31
0.0
  0
LINE
  5
AD
330
1F
100
AcDbEntity
  8
0
  6
Continuous
 62
     7
370
    25
100
AcDbLine
 10
272.8187500258
 20
123.5851687621
 30
0.0
 11
229.1894874295
 21
123.5851687621
 31
0.0
  0
LINE
  5
AE
330
1F
100
AcDbEntity
  8
0
  6
Continuous
 62
     7
370
    25
100
AcDbLine
 10
399.1894892176
 20
107.5851680021
 30
0.0
 11
399.1894892176
 21
145.0851694922
 31
0.0
  0
LINE
  5
AF
330
1F
100
AcDbEntity
  8
0
  6
Continuous
 62
     7
370
    25
100
AcDbLine
 10
399.1894892176
 20
70.085166512
 30
0.0
 11
399.1894892176
 21
107.5851680021
 31
0.0
  0
LINE
  5
B0
330
1F
100
AcDbEntity
  8
0
  6
Continuous
 62
     7
370
    25
100
AcDbLine
 10
229.1894874295
 20
107.5851680021
 30
0.0
 11
229.1894874295
 21
123.5851687621
 31
0.0
  0
LINE
  5
B1
330
1F
100
AcDbEntity
  8
0
  6
Continuous
 62
     7
370
    25
100
AcDbLine
 10
229.1894874295
 20
91.5851672422
 30
0.0
 11
229.1894874295
 21
107.5851680021
 31
0.0
  0
LINE
  5
B2
330
1F
100
AcDbEntity
  8
0
  6
Continuous
 62
     1
370
    25
100
AcDbLine
 10
328.8433815112
 20
107.5851680021
 30
0.0
 11
328.8433815112
 21
144.9522883873
 31
0.0
  0
LINE
  5
B3
330
1F
100
AcDbEntity
  8
0
  6
Continuous
 62
     1
370
    25
100
AcDbLine
 10
328.8433815112
 20
70.2180476169
 30
0.0
 11
328.8433815112
 21
107.5851680021
 31
0.0
  0
LINE
  5
B4
330
1F
100
AcDbEntity
  8
0
  6
Continuous
 62
     1
370
    25
100
AcDbLine
 10
329.5602223595
 20
107.5851680021
 30
0.0
 11
329.5602223595
 21
145.0851694922
 31
0.0
  0
LINE
  5
B5
330
1F
100
AcDbEntity
  8
0
  6
Continuous
 62
     1
370
    25
100
AcDbLine
 10
329.5602223595
 20
70.085166512
 30
0.0
 11
329.5602223595
 21
107.5851680021
 31
0.0
  0
LINE
  5
B6
330
1F
100
AcDbEntity
  8
0
  6
Continuous
 62
     1
370
    25
100
AcDbLine
 10
273.5355927368
 20
107.5851680021
 30
0.0
 11
273.5355927368
 21
123.7180480044
 31
0.0
  0
LINE
  5
B7
330
1F
100
AcDbEntity
  8
0
  6
Continuous
 62
     1
370
    25
100
AcDbLine
 10
273.5355927368
 20
91.4522879999
 30
0.0
 11
273.5355927368
 21
107.5851680021
 31
0.0
  0
LINE
  5
B8
330
1F
100
AcDbEntity
  8
0
  6
Continuous
 62
     1
370
    25
100
AcDbLine
 10
272.8187500258
 20
107.5851680021
 30
0.0
 11
272.8187500258
 21
123.5851687621
 31
0.0
  0
LINE
  5
B9
330
1F
100
AcDbEntity
  8
0
  6
Continuous
 62
     1
370
    25
100
AcDbLine
 10
272.8187500258
 20
91.5851672422
 30
0.0
 11
272.8187500258
 21
107.5851680021
 31
0.0
  0
ARC
  5
BA
330
1F
100
AcDbEntity
  8
0
  6
Continuous
 62
     7
370
    25
100
AcDbCircle
 10
174.895004093
 20
291.9265427364
 30
0.0
 40
2.000000000000032
100
AcDbArc
 50
338.9967772886
 51
0.0
  0
ARC
  5
BB
330
1F
100
AcDbEntity
  8
0
  6
Continuous
 62
     7
370
    25
100
AcDbCircle
 10
103.895004093
 20
291.9265427364
 30
0.0
 40
2.000000000000019
100
AcDbArc
 50
180.0
 51
201.0032227114
  0
LINE
  5
BC
330
1F
100
AcDbEntity
  8
0
  6
Continuous
 62
     7
370
    25
100
AcDbLine
 10
176.8950055832
 20
291.9265421607
 30
0.0
 11
176.8950055832
 21
361.5558090188
 31
0.0
  0
LINE
  5
BD
330
1F
100
AcDbEntity
  8
0
  6
Continuous
 62
     7
370
    25
100
AcDbLine
 10
101.8950026029
 20
361.5558090188
 30
0.0
 11
101.8950026029
 21
291.9265421607
 31
0.0
  0
LINE
  5
BE
330
1F
100
AcDbEntity
  8
0
  6
Continuous
 62
     7
370
    25
100
AcDbLine
 10
102.0278837079
 20
291.2097013124
 30
0.0
 11
123.2621240908
 21
235.901912538
 31
0.0
  0
LINE
  5
BF
330
1F
100
AcDbEntity
  8
0
  6
Continuous
 62
     7
370
    25
100
AcDbLine
 10
155.5278840953
 20
235.901912538
 30
0.0
 11
176.7621244782
 21
291.2097013124
 31
0.0
  0
ARC
  5
C0
330
1F
100
AcDbEntity
  8
0
  6
Continuous
 62
     7
370
    25
100
AcDbCircle
 10
157.395004093
 20
235.185070198
 30
0.0
 40
2.000000000000028
100
AcDbArc
 50
158.9967772886
 51
180.0
  0
ARC
  5
C1
330
1F
100
AcDbEntity
  8
0
  6
Continuous
 62
     7
370
    25
100
AcDbCircle
 10
121.395004093
 20
235.185070198
 30
0.0
 40
2.000000000000014
100
AcDbArc
 50
0.0
 51
21.0032227114
  0
LINE
  5
C2
330
1F
100
AcDbEntity
  8
0
  6
Continuous
 62
     7
370
    25
100
AcDbLine
 10
155.395004853
 20
191.5558072307
 30
0.0
 11
155.395004853
 21
235.185069827
 31
0.0
  0
LINE
  5
C3
330
1F
100
AcDbEntity
  8
0
  6
Continuous
 62
     7
370
    25
100
AcDbLine
 10
123.3950033331
 20
235.185069827
 30
0.0
 11
123.3950033331
 21
191.5558072307
 31
0.0
  0
LINE
  5
C4
330
1F
100
AcDbEntity
  8
0
  6
Continuous
 62
     7
370
    25
100
AcDbLine
 10
176.8950055832
 20
361.5558090188
 30
0.0
 11
101.8950026029
 21
361.5558090188
 31
0.0
  0
LINE
  5
C5
330
1F
100
AcDbEntity
  8
0
  6
Continuous
 62
     7
370
    25
100
AcDbLine
 10
155.395004853
 20
191.5558072307
 30
0.0
 11
123.3950033331
 21
191.5558072307
 31
0.0
  0
LINE
  5
C6
330
1F
100
AcDbEntity
  8
0
  6
Continuous
 62
     1
370
    25
100
AcDbLine
 10
176.7621244782
 20
291.2097013124
 30
0.0
 11
102.0278837079
 21
291.2097013124
 31
0.0
  0
LINE
  5
C7
330
1F
100
AcDbEntity
  8
0
  6
Continuous
 62
     1
370
    25
100
AcDbLine
 10
176.8950055832
 20
291.9265421607
 30
0.0
 11
101.8950026029
 21
291.9265421607
 31
0.0
  0
LINE
  5
C8
330
1F
100
AcDbEntity
  8
0
  6
Continuous
 62
     1
370
    25
100
AcDbLine
 10
155.5278840953
 20
235.901912538
 30
0.0
 11
123.2621240908
 21
235.901912538
 31
0.0
  0
LINE
  5
C9
330
1F
100
AcDbEntity
  8
0
  6
Continuous
 62
     1
370
    25
100
AcDbLine
 10
155.395004853
 20
235.185069827
 30
0.0
 11
123.3950033331
 21
235.185069827
 31
0.0
  0
ARC
  5
CA
330
1F
100
AcDbEntity
  8
0
  6
Continuous
 62
     7
370
    25
100
AcDbCircle
 10
103.895004093
 20
-77.7784859923
 30
0.0
 40
2.000000000000014
100
AcDbArc
 50
158.9967772886
 51
180.0
  0
ARC
  5
CB
330
1F
100
AcDbEntity
  8
0
  6
Continuous
 62
     7
370
    25
100
AcDbCircle
 10
174.895004093
 20
-77.7784859923
 30
0.0
 40
2.000000000000017
100
AcDbArc
 50
0.0
 51
21.0032227114
  0
LINE
  5
CC
330
1F
100
AcDbEntity
  8
0
  6
Continuous
 62
     7
370
    25
100
AcDbLine
 10
101.8950026029
 20
-77.7784854166
 30
0.0
 11
101.8950026029
 21
-147.4077522747
 31
0.0
  0
LINE
  5
CD
330
1F
100
AcDbEntity
  8
0
  6
Continuous
 62
     7
370
    25
100
AcDbLine
 10
176.8950055832
 20
-147.4077522747
 30
0.0
 11
176.8950055832
 21
-77.7784854166
 31
0.0
  0
LINE
  5
CE
330
1F
100
AcDbEntity
  8
0
  6
Continuous
 62
     7
370
    25
100
AcDbLine
 10
176.7621244782
 20
-77.0616445683
 30
0.0
 11
155.5278840953
 21
-21.7538557939
 31
0.0
  0
LINE
  5
CF
330
1F
100
AcDbEntity
  8
0
  6
Continuous
 62
     7
370
    25
100
AcDbLine
 10
123.2621240908
 20
-21.7538557939
 30
0.0
 11
102.0278837079
 21
-77.0616445683
 31
0.0
  0
ARC
  5
D0
330
1F
100
AcDbEntity
  8
0
  6
Continuous
 62
     7
370
    25
100
AcDbCircle
 10
121.395004093
 20
-21.0370134539
 30
0.0
 40
2.000000000000014
100
AcDbArc
 50
338.9967772886
 51
0.0
  0
ARC
  5
D1
330
1F
100
AcDbEntity
  8
0
  6
Continuous
 62
     7
370
    25
100
AcDbCircle
 10
157.395004093
 20
-21.0370134539
 30
0.0
 40
2.000000000000028
100
AcDbArc
 50
180.0
 51
201.0032227114
  0
LINE
  5
D2
330
1F
100
AcDbEntity
  8
0
  6
Continuous
 62
     7
370
    25
100
AcDbLine
 10
123.3950033331
 20
22.5922495134
 30
0.0
 11
123.3950033331
 21
-21.037013083
 31
0.0
  0
LINE
  5
D3
330
1F
100
AcDbEntity
  8
0
  6
Continuous
 62
     7
370
    25
100
AcDbLine
 10
155.395004853
 20
-21.037013083
 30
0.0
 11
155.395004853
 21
22.5922495134
 31
0.0
  0
LINE
  5
D4
330
1F
100
AcDbEntity
  8
0
  6
Continuous
 62
     7
370
    25
100
AcDbLine
 10
101.8950026029
 20
-147.4077522747
 30
0.0
 11
176.8950055832
 21
-147.4077522747
 31
0.0
  0
LINE
  5
D5
330
1F
100
AcDbEntity
  8
0
  6
Continuous
 62
     7
370
    25
100
AcDbLine
 10
123.3950033331
 20
22.5922495134
 30
0.0
 11
155.395004853
 21
22.5922495134
 31
0.0
  0
LINE
  5
D6
330
1F
100
AcDbEntity
  8
0
  6
Continuous
 62
     1
370
    25
100
AcDbLine
 10
102.0278837079
 20
-77.0616445683
 30
0.0
 11
176.7621244782
 21
-77.0616445683
 31
0.0
  0
LINE
  5
D7
330
1F
100
AcDbEntity
  8
0
  6
Continuous
 62
     1
370
    25
100
AcDbLine
 10
101.8950026029
 20
-77.7784854166
 30
0.0
 11
176.8950055832
 21
-77.7784854166
 31
0.0
  0
LINE
  5
D8
330
1F
100
AcDbEntity
  8
0
  6
Continuous
 62
     1
370
    25
100
AcDbLine
 10
123.2621240908
 20
-21.7538557939
 30
0.0
 11
155.5278840953
 21
-21.7538557939
 31
0.0
  0
LINE
  5
D9
330
1F
100
AcDbEntity
  8
0
  6
Continuous
 62
     1
370
    25
100
AcDbLine
 10
123.3950033331
 20
-21.037013083
 30
0.0
 11
155.395004853
 21
-21.037013083
 31
0.0
  0
LINE
  5
DA
330
1F
100
AcDbEntity
  8
0
  6
Continuous
 62
     7
370
    25
100
AcDbLine
 10
323.8667413571
 20
-2.0694912833
 30
0.0
 11
274.6314145927
 21
26.3534578583
 31
0.0
  0
LINE
  5
DB
330
1F
100
AcDbEntity
  8
0
  6
Continuous
 62
     7
370
    25
100
AcDbLine
 10
237.1344619248
 20
-38.6002079454
 30
0.0
 11
286.3697886892
 21
-67.023157087
 31
0.0
  0
SPLINE
  5
DC
330
1F
100
AcDbEntity
  8
0
  6
Continuous
 62
     7
370
    25
100
AcDbSpline
210
0.0
220
0.0
230
1.0
 70
     8
 71
     3
 72
    13
 73
     9
 74
     0
 42
0.000000001
 43
0.00000001
 40
0.0
 40
0.0
 40
0.0
 40
0.0
 40
0.0905261612862421
 40
0.2898042881621448
 40
0.4875681314417061
 40
0.6839241253020382
 40
0.8791239369069974
 40
1.0
 40
1.0
 40
1.0
 40
1.0
 10
328.7963908583392
 20
-6.82606260775153
 30
0.0
 10
328.6820971324228
 20
-6.645048404573452
 30
0.0
 10
328.3162049813587
 20
-6.065561861082598
 30
0.0
 10
327.6099604456475
 20
-5.184703663175965
 30
0.0
 10
326.6881568268667
 20
-4.186576934441008
 30
0.0
 10
325.6884132654858
 20
-3.302508719305597
 30
0.0
 10
324.7662698091119
 20
-2.606619154832901
 30
0.0
 10
324.1521100476554
 20
-2.251463970672003
 30
0.0
 10
323.9172385499622
 20
-2.115642910334961
 30
0.0
  0
SPLINE
  5
DD
330
1F
100
AcDbEntity
  8
0
  6
Continuous
 62
     7
370
    25
100
AcDbSpline
210
0.0
220
0.0
230
1.0
 70
     8
 71
     3
 72
    13
 73
     9
 74
     0
 42
0.000000001
 43
0.00000001
 40
0.0
 40
0.0
 40
0.0
 40
0.0
 40
0.1374598886545346
 40
0.3346914828666226
 40
0.5321431554602704
 40
0.7302776262284452
 40
0.9294739685962847
 40
1.0
 40
1.0
 40
1.0
 40
1.0
 10
286.455240107454
 20
-67.05705979959046
 30
0.0
 10
286.7194501448755
 20
-67.20660874196463
 30
0.0
 10
287.3627567129108
 20
-67.57073501744954
 30
0.0
 10
288.4531745191502
 20
-68.02371814942306
 30
0.0
 10
289.7098870562795
 20
-68.43366319462052
 30
0.0
 10
291.0199975916273
 20
-68.72016673441811
 30
0.0
 10
292.074470370401
 20
-68.87947246308302
 30
0.0
 10
292.7017179268361
 20
-68.90367267393562
 30
0.0
 10
292.8657283507563
 20
-68.91000045759962
 30
0.0
  0
LINE
  5
DE
330
1F
100
AcDbEntity
  8
0
  6
Continuous
 62
     7
370
    25
100
AcDbLine
 10
292.717845596
 20
-68.9137158922
 30
0.0
 11
339.1610621846
 21
-72.1272476176
 31
0.0
  0
LINE
  5
DF
330
1F
100
AcDbEntity
  8
0
  6
Continuous
 62
     7
370
    25
100
AcDbLine
 10
354.6867007218
 20
-45.2331380758
 30
0.0
 11
328.6784705617
 21
-6.621338215
 31
0.0
  0
LINE
  5
E0
330
1F
100
AcDbEntity
  8
0
  6
Continuous
 62
     7
370
    25
100
AcDbLine
 10
384.0904423415
 20
-61.661283509
 30
0.0
 11
354.0846231127
 21
-44.3392927771
 31
0.0
  0
LINE
  5
E1
330
1F
100
AcDbEntity
  8
0
  6
Continuous
 62
     7
370
    25
100
AcDbLine
 10
338.0859230794
 20
-72.052856316
 30
0.0
 11
368.0917423082
 21
-89.3748470478
 31
0.0
  0
LWPOLYLINE
  5
E2
330
1F
100
AcDbEntity
  8
0
  6
Continuous
 62
     7
370
    25
100
AcDbPolyline
 90
      105
 70
   128
 43
0.0
 10
229.3664329106
 20
-21.4310277485
 10
229.4148122243
 20
-19.5542923828
 10
229.5597684072
 20
-17.6285504436
 10
229.8007772579
 20
-15.6608262773
 10
230.1369563267
 20
-13.6583016128
 10
230.5670780866
 20
-11.6282832426
 10
231.0895752018
 20
-9.5781775478
 10
231.7025431615
 20
-7.5154650233
 10
232.4037402801
 20
-5.4476740414
 10
233.1906114051
 20
-3.3823473936
 10
234.0602826482
 20
-1.3270240395
 10
235.0095837761
 20
0.7107989148
 10
236.0350495276
 20
2.723683707
 10
237.1329380528
 20
4.7042884188
 10
238.299244084
 20
6.6453837055
 10
239.5297094725
 20
8.5398862547
 10
240.8198468959
 20
10.3808846403
 10
242.1649477611
 20
12.1616590935
 10
243.5601045943
 20
13.8757157218
 10
245.0002255294
 20
15.5167963933
 10
246.4800560398
 20
17.0789171384
 10
247.9941973777
 20
18.5563727105
 10
249.5371236959
 20
19.9437738474
 10
251.1032047684
 20
21.2360603871
 10
252.6867267335
 20
22.4285162846
 10
254.281911522
 20
23.5167869112
 10
255.8829382587
 20
24.4969066189
 10
257.4839649955
 20
25.3652930349
 10
259.0791497839
 20
26.118783562
 10
260.6626717491
 20
26.7546232091
 10
262.2287528215
 20
27.270495388
 10
263.7716791398
 20
27.6645190594
 10
265.2858204776
 20
27.9352538647
 10
266.765650988
 20
28.0817090589
 10
268.2057719232
 20
28.1033566269
 10
269.6009287564
 20
28.0001137911
 10
270.9460296215
 20
27.7723597398
 10
272.236167045
 20
27.4209223171
 10
273.4666324334
 20
26.9470848657
 10
274.6329384647
 20
26.3525778598
 10
275.7308269899
 20
25.6395682576
 10
276.7562927414
 20
24.8106610205
 10
277.7055938693
 20
23.8688778186
 10
278.5752651123
 20
22.8176555088
 10
279.3621362373
 20
21.660830924
 10
280.063333356
 20
20.4026249027
 10
280.6763013157
 20
19.0476301203
 10
281.1987984308
 20
17.6007867539
 10
281.6289201908
 20
16.0673763971
 10
281.9650992596
 20
14.4529958235
 10
282.2061081102
 20
12.7635345533
 10
282.3510642932
 20
11.0051554604
 10
282.3994436069
 20
9.1842776614
 10
282.3510642932
 20
7.3075422957
 10
282.2061081102
 20
5.3818003565
 10
281.9650992596
 20
3.4140761903
 10
281.6289201908
 20
1.4115515258
 10
281.1987984308
 20
-0.6184668445
 10
280.6763013157
 20
-2.6685725392
 10
280.063333356
 20
-4.7312850637
 10
279.3621362373
 20
-6.7990760457
 10
278.5752651123
 20
-8.8644026934
 10
277.7055938693
 20
-10.9197260476
 10
276.7562927414
 20
-12.9575490019
 10
275.7308269899
 20
-14.970433794
 10
274.6329384647
 20
-16.9510385059
 10
273.4666324334
 20
-18.8921337925
 10
272.236167045
 20
-20.7866363417
 10
270.9460296215
 20
-22.6276347273
 10
269.6009287564
 20
-24.4084091806
 10
268.2057719232
 20
-26.1224658088
 10
266.765650988
 20
-27.7635464803
 10
265.2858204776
 20
-29.3256672254
 10
263.7716791398
 20
-30.8031227975
 10
262.2287528215
 20
-32.1905239345
 10
260.6626717491
 20
-33.4828104741
 10
259.0791497839
 20
-34.6752663717
 10
257.4839649955
 20
-35.7635369983
 10
255.8829382587
 20
-36.743656706
 10
254.281911522
 20
-37.612043122
 10
252.6867267335
 20
-38.3655336491
 10
251.1032047684
 20
-39.0013732962
 10
249.5371236959
 20
-39.517245475
 10
247.9941973777
 20
-39.9112691465
 10
246.4800560398
 20
-40.1820039517
 10
245.0002255294
 20
-40.3284591459
 10
243.5601045943
 20
-40.3501067139
 10
242.1649477611
 20
-40.2468638781
 10
240.8198468959
 20
-40.0191098268
 10
239.5297094725
 20
-39.6676724041
 10
238.299244084
 20
-39.1938349528
 10
237.1329380528
 20
-38.5993279468
 10
236.0350495276
 20
-37.8863183447
 10
235.0095837761
 20
-37.0574111076
 10
234.0602826482
 20
-36.1156279056
 10
233.1906114051
 20
-35.0644055959
 10
232.4037402801
 20
-33.907581011
 10
231.7025431615
 20
-32.6493749898
 10
231.0895752018
 20
-31.2943802073
 10
230.5670780866
 20
-29.847536841
 10
230.1369563267
 20
-28.3141264841
 10
229.8007772579
 20
-26.6997459106
 10
229.5597684072
 20
-25.0102846403
 10
229.4148122243
 20
-23.2519055475
 10
229.3664329106
 20
-21.4310277485
  0
LWPOLYLINE
  5
E3
330
1F
100
AcDbEntity
  8
0
  6
Continuous
 62
     7
370
    25
100
AcDbPolyline
 90
       95
 70
   128
 43
0.0
 10
234.1747600742
 20
-18.6552395612
 10
234.2232368525
 20
-16.9529099048
 10
234.3684511849
 20
-15.2022128591
 10
234.6097550635
 20
-13.4109674425
 10
234.9460697925
 20
-11.5871736236
 10
235.3758938903
 20
-9.7389773399
 10
235.8973070412
 20
-7.8746328557
 10
236.5079806318
 20
-6.0024670212
 10
237.2051869708
 20
-4.1308423908
 10
237.9858137767
 20
-2.2681153992
 10
238.846373398
 20
-0.4226059437
 10
239.7830225688
 20
1.3974413978
 10
240.7915768973
 20
3.18389843
 10
241.8675332562
 20
4.9287860383
 10
243.0060869048
 20
6.6243144918
 10
244.2021512453
 20
8.2629070154
 10
245.4503841646
 20
9.8372469366
 10
246.745211742
 20
11.3403035383
 10
248.0808499811
 20
12.7653628563
 10
249.4513351029
 20
14.1060603758
 10
250.8505452775
 20
15.3564087863
 10
252.2722309177
 20
16.5108230744
 10
253.7100431604
 20
17.5641476122
 10
255.1575599619
 20
18.5116773056
 10
256.6083165555
 20
19.3491812602
 10
258.055833357
 20
20.0729188921
 10
259.4936455998
 20
20.6796570343
 10
260.9153312399
 20
21.1666860472
 10
262.3145414146
 20
21.5318313176
 10
263.6850265364
 20
21.7734622389
 10
265.0206647755
 20
21.8904980073
 10
266.3154923529
 20
21.882417505
 10
267.5637252722
 20
21.7492566362
 10
268.7597896127
 20
21.4916106058
 10
269.8983432612
 20
21.1106282141
 10
270.9742996202
 20
20.6080133752
 10
271.9828539487
 20
19.9860083847
 10
272.9195031195
 20
19.2473931569
 10
273.7800627407
 20
18.395464691
 10
274.5606895467
 20
17.434030225
 10
275.2578958857
 20
16.3673828992
 10
275.8685694763
 20
15.2002857846
 10
276.3899826272
 20
13.9379521103
 10
276.819806725
 20
12.5860201667
 10
277.156121454
 20
11.1505270686
 10
277.3974253326
 20
9.63788518
 10
277.5426396649
 20
8.0548490337
 10
277.5911164433
 20
6.4084894742
 10
277.5426396649
 20
4.7061598178
 10
277.3974253326
 20
2.955462772
 10
277.156121454
 20
1.1642173555
 10
276.819806725
 20
-0.6595764635
 10
276.3899826272
 20
-2.5077727471
 10
275.8685694763
 20
-4.3721172313
 10
275.2578958857
 20
-6.2442830658
 10
274.5606895467
 20
-8.1159076962
 10
273.7800627407
 20
-9.9786346878
 10
272.9195031195
 20
-11.8241441434
 10
271.9828539487
 20
-13.6441914849
 10
270.9742996202
 20
-15.4306485171
 10
269.8983432612
 20
-17.1755361254
 10
268.7597896127
 20
-18.8710645789
 10
267.5637252722
 20
-20.5096571025
 10
266.3154923529
 20
-22.0839970236
 10
265.0206647755
 20
-23.5870536254
 10
263.6850265364
 20
-25.0121129434
 10
262.3145414146
 20
-26.3528104628
 10
260.9153312399
 20
-27.6031588734
 10
259.4936455998
 20
-28.7575731615
 10
258.055833357
 20
-29.8108976993
 10
256.6083165555
 20
-30.7584273926
 10
255.1575599619
 20
-31.5959313473
 10
253.7100431604
 20
-32.3196689791
 10
252.2722309177
 20
-32.9264071213
 10
250.8505452775
 20
-33.4134361342
 10
249.4513351029
 20
-33.7785814046
 10
248.0808499811
 20
-34.0202123259
 10
246.745211742
 20
-34.1372480944
 10
245.4503841646
 20
-34.1291675921
 10
244.2021512453
 20
-33.9960067232
 10
243.0060869048
 20
-33.7383606928
 10
241.8675332562
 20
-33.3573783011
 10
240.7915768973
 20
-32.8547634623
 10
239.7830225688
 20
-32.2327584717
 10
238.846373398
 20
-31.4941432439
 10
237.9858137767
 20
-30.6422147781
 10
237.2051869708
 20
-29.6807803121
 10
236.5079806318
 20
-28.6141329862
 10
235.8973070412
 20
-27.4470358716
 10
235.3758938903
 20
-26.1847021973
 10
234.9460697925
 20
-24.8327702537
 10
234.6097550635
 20
-23.3972771556
 10
234.3684511849
 20
-21.8846352671
 10
234.2232368525
 20
-20.3015991207
 10
234.1747600742
 20
-18.6552395612
  0
LWPOLYLINE
  5
E4
330
1F
100
AcDbEntity
  8
0
  6
Continuous
 62
     7
370
    25
100
AcDbPolyline
 90
        3
 70
   128
 43
0.0
 10
323.8667413571
 20
-2.0694912833
 10
323.8682652291
 20
-2.0703712818
 10
323.9190113518
 20
-2.0998356154
  0
LINE
  5
E5
330
1F
100
AcDbEntity
  8
0
  6
Continuous
 62
     7
370
    25
100
AcDbLine
 10
286.4411762309
 20
-67.0640546356
 30
0.0
 11
286.3697886892
 21
-67.023157087
 31
0.0
  0
LINE
  5
E6
330
1F
100
AcDbEntity
  8
0
  6
Continuous
 62
     7
370
    25
100
AcDbLine
 10
328.6784705617
 20
-6.621338215
 30
0.0
 11
328.7973536504
 21
-6.8005235529
 31
0.0
  0
LINE
  5
E7
330
1F
100
AcDbEntity
  8
0
  6
Continuous
 62
     7
370
    25
100
AcDbLine
 10
292.850950612
 20
-68.9223459474
 30
0.0
 11
292.717845596
 21
-68.9137158922
 31
0.0
  0
LWPOLYLINE
  5
E8
330
1F
100
AcDbEntity
  8
0
  6
Continuous
 62
     7
370
    25
100
AcDbPolyline
 90
       35
 70
   128
 43
0.0
 10
384.0904423415
 20
-61.661283509
 10
384.7198903775
 20
-62.086942093
 10
385.3671843111
 20
-62.6834597319
 10
385.9329596542
 20
-63.3927684219
 10
386.4122443959
 20
-64.2086349425
 10
386.8008258268
 20
-65.1238896346
 10
387.0952907108
 20
-66.1304878112
 10
387.2930503095
 20
-67.2195846659
 10
387.3923654067
 20
-68.3816093723
 10
387.3923654067
 20
-69.6063490223
 10
387.2930503095
 20
-70.8830404992
 10
387.0952907108
 20
-72.2004657264
 10
386.8008258268
 20
-73.5470458214
 10
386.4122443959
 20
-74.9109470839
 10
385.9329596542
 20
-76.2801839884
 10
385.3671843111
 20
-77.6427229852
 10
384.7198903775
 20
-78.986590292
 10
383.9967657023
 20
-80.2999768343
 10
383.2041665572
 20
-81.5713393816
 10
382.3490570503
 20
-82.7895054865
 10
381.4389521623
 20
-83.9437702476
 10
380.4818505747
 20
-85.02398908
 10
379.4861625595
 20
-86.0206695344
 10
378.4606383621
 20
-86.925052945
 10
377.4142907405
 20
-87.7291910863
 10
376.3563147664
 20
-88.4260183269
 10
375.2960079974
 20
-89.0094098796
 10
374.2426884474
 20
-89.4742375226
 10
373.2056127209
 20
-89.8164191396
 10
372.1938947445
 20
-90.0329458638
 10
371.2164253631
 20
-90.1219155662
 10
370.2817952898
 20
-90.0825453958
 10
369.3982169038
 20
-89.9151827043
 10
368.573455762
 20
-89.6212974345
 10
368.0917423082
 20
-89.3748470478
  0
LWPOLYLINE
  5
E9
330
1F
100
AcDbEntity
  8
0
  6
Continuous
 62
     1
370
    25
100
AcDbPolyline
 90
       53
 70
   128
 43
0.0
 10
323.9190113518
 20
-2.0998356154
 10
324.9661537543
 20
-2.783380884
 10
325.9916195058
 20
-3.6122881211
 10
326.9409206337
 20
-4.554071323
 10
327.8105918767
 20
-5.6052936328
 10
328.5974630017
 20
-6.7621182177
 10
329.2986601204
 20
-8.0203242389
 10
329.9116280801
 20
-9.3753190213
 10
330.4341251952
 20
-10.8221623877
 10
330.8642469552
 20
-12.3555727445
 10
331.200426024
 20
-13.9699533181
 10
331.4414348747
 20
-15.6594145883
 10
331.5863910576
 20
-17.4177936812
 10
331.6347703713
 20
-19.2386714802
 10
331.5863910576
 20
-21.1154068459
 10
331.4414348747
 20
-23.0411487851
 10
331.200426024
 20
-25.0088729513
 10
330.8642469552
 20
-27.0113976158
 10
330.4341251952
 20
-29.0414159861
 10
329.9116280801
 20
-31.0915216809
 10
329.2986601204
 20
-33.1542342053
 10
328.5974630017
 20
-35.2220251873
 10
327.8105918767
 20
-37.2873518351
 10
326.9409206337
 20
-39.3426751892
 10
325.9916195058
 20
-41.3804981435
 10
324.9661537543
 20
-43.3933829356
 10
323.8682652291
 20
-45.3739876475
 10
322.7019591978
 20
-47.3150829341
 10
321.4714938094
 20
-49.2095854833
 10
320.1813563859
 20
-51.0505838689
 10
318.8362555208
 20
-52.8313583222
 10
317.4410986876
 20
-54.5454149505
 10
316.0009777524
 20
-56.186495622
 10
314.521147242
 20
-57.748616367
 10
313.0070059042
 20
-59.2260719391
 10
311.4640795859
 20
-60.6134730761
 10
309.8979985135
 20
-61.9057596157
 10
308.3144765483
 20
-63.0982155133
 10
306.7192917599
 20
-64.1864861399
 10
305.1182650231
 20
-65.1666058476
 10
303.5172382864
 20
-66.0349922636
 10
301.922053498
 20
-66.7884827907
 10
300.3385315328
 20
-67.4243224378
 10
298.7724504603
 20
-67.9401946167
 10
297.2295241421
 20
-68.3342182881
 10
295.7153828042
 20
-68.6049530933
 10
294.2355522938
 20
-68.7514082875
 10
292.7954313587
 20
-68.7730558556
 10
291.4002745255
 20
-68.6698130198
 10
290.0551736603
 20
-68.4420589685
 10
288.7650362369
 20
-68.0906215458
 10
287.5345708484
 20
-67.6167840944
 10
286.4411762309
 20
-67.0640546356
  0
LWPOLYLINE
  5
EA
330
1F
100
AcDbEntity
  8
0
  6
Continuous
 62
     1
370
    25
100
AcDbPolyline
 90
       44
 70
   128
 43
0.0
 10
328.7973536504
 20
-6.8005235529
 10
329.330229427
 20
-7.676666349
 10
329.99766692
 20
-8.9852445458
 10
330.5744386394
 20
-10.3899991025
 10
331.0583977299
 20
-11.8857046772
 10
331.4477424139
 20
-13.4667990752
 10
331.7410238935
 20
-15.1273999802
 10
331.937154253
 20
-16.8613279586
 10
332.0354038253
 20
-18.662132981
 10
332.0354038253
 20
-20.5231178062
 10
331.937154253
 20
-22.4373593702
 10
331.7410238935
 20
-24.3977346417
 10
331.4477424139
 20
-26.3969511353
 10
331.0583977299
 20
-28.427573337
 10
330.5744386394
 20
-30.482046184
 10
329.99766692
 20
-32.5527271932
 10
329.330229427
 20
-34.6319123166
 10
328.5746049219
 20
-36.7118686395
 10
327.7336093408
 20
-38.7848571955
 10
326.8103681362
 20
-40.8431664235
 10
325.8083162762
 20
-42.8791387847
 10
324.7311811226
 20
-44.88520346
 10
323.5829718944
 20
-46.8538930803
 10
322.3679572772
 20
-48.7778870698
 10
321.0906588375
 20
-50.6500260946
 10
319.7558259983
 20
-52.4633478021
 10
318.3684281365
 20
-54.2111065924
 10
316.9336229726
 20
-55.8867979498
 10
315.4567506441
 20
-57.4841907623
 10
313.9433040708
 20
-58.9973429079
 10
312.3989131495
 20
-60.4206225466
 10
310.8293230227
 20
-61.7487358749
 10
309.2403733337
 20
-62.9767451847
 10
307.6379745194
 20
-64.1000795079
 10
306.0280880953
 20
-65.1145612071
 10
304.4167026592
 20
-66.0164137437
 10
302.8098126538
 20
-66.8022830645
 10
301.2133960578
 20
-67.4692504797
 10
299.6333913789
 20
-68.0148276942
 10
298.0756761266
 20
-68.436990527
 10
296.5460458219
 20
-68.7341636527
 10
295.0501902895
 20
-68.9052464549
 10
293.5936742303
 20
-68.9495999064
 10
292.850950612
 20
-68.9223459474
  0
LWPOLYLINE
  5
EB
330
1F
100
AcDbEntity
  8
0
  6
Continuous
 62
     1
370
    25
100
AcDbPolyline
 90
       30
 70
   128
 43
0.0
 10
354.6867007218
 20
-45.2331380758
 10
354.9453868827
 20
-45.6489207199
 10
355.3709943201
 20
-46.516310789
 10
355.7058483973
 20
-47.4766912507
 10
355.9470916899
 20
-48.5218684193
 10
356.0926655875
 20
-49.6429258646
 10
356.1413293925
 20
-50.8302981776
 10
356.0926655875
 20
-52.0738565239
 10
355.9470916899
 20
-53.3629900138
 10
355.7058483973
 20
-54.6867007592
 10
355.3709943201
 20
-56.0336955091
 10
354.9453868827
 20
-57.3924814658
 10
354.4326559826
 20
-58.7514664735
 10
353.8371763309
 20
-60.0990565454
 10
353.164029257
 20
-61.4237539592
 10
352.418957269
 20
-62.7142564939
 10
351.6083166386
 20
-63.9595547641
 10
350.7390240586
 20
-65.1490246116
 10
349.8184960574
 20
-66.2725168341
 10
348.8545857781
 20
-67.3204461536
 10
347.8555171247
 20
-68.2838733398
 10
346.8298141325
 20
-69.1545779234
 10
345.7862273764
 20
-69.9251310981
 10
344.7336605428
 20
-70.5889601632
 10
343.6810937092
 20
-71.1403988966
 10
342.6375069531
 20
-71.5747453434
 10
341.6118039609
 20
-71.888292227
 10
340.6127353075
 20
-72.0783651551
 10
339.6488250283
 20
-72.1433429552
 10
339.1610621846
 20
-72.1272476176
  0
LWPOLYLINE
  5
EC
330
1F
100
AcDbEntity
  8
0
  6
Continuous
 62
     1
370
    25
100
AcDbPolyline
 90
       33
 70
   128
 43
0.0
 10
354.2880323647
 20
-44.6412741575
 10
354.516636871
 20
-44.8738177837
 10
355.0824122142
 20
-45.5831264736
 10
355.5616969558
 20
-46.3989929943
 10
355.9502783867
 20
-47.3142476863
 10
356.2447432707
 20
-48.320845863
 10
356.4425028694
 20
-49.4099427177
 10
356.5418179667
 20
-50.5719674241
 10
356.5418179667
 20
-51.796707074
 10
356.4425028694
 20
-53.0733985509
 10
356.2447432707
 20
-54.3908237781
 10
355.9502783867
 20
-55.7374038732
 10
355.5616969558
 20
-57.1013051357
 10
355.0824122142
 20
-58.4705420402
 10
354.516636871
 20
-59.8330810369
 10
353.8693429374
 20
-61.1769483438
 10
353.1462182622
 20
-62.490334886
 10
352.3536191171
 20
-63.7616974333
 10
351.4985096102
 20
-64.9798635382
 10
350.5884047222
 20
-66.1341282993
 10
349.6313031346
 20
-67.2143471317
 10
348.6356151194
 20
-68.2110275861
 10
347.6100909221
 20
-69.1154109967
 10
346.5637433005
 20
-69.9195491381
 10
345.5057673263
 20
-70.6163763786
 10
344.4454605573
 20
-71.1997679314
 10
343.3921410073
 20
-71.6645955743
 10
342.3550652808
 20
-72.0067771913
 10
341.3433473044
 20
-72.2233039155
 10
340.3658779231
 20
-72.3122736179
 10
339.4312478497
 20
-72.2729034476
 10
338.5476694637
 20
-72.105540756
 10
338.4491538395
 20
-72.077989067
  0
ENDSEC
  0
SECTION
  2
OBJECTS
  0
DICTIONARY
  5
C
330
0
100
AcDbDictionary
281
     1
  3
ACAD_GROUP
350
D
  3
ACAD_LAYOUT
350
1A
  3
ACAD_MLINESTYLE
350
17
  3
ACAD_PLOTSETTINGS
350
19
  3
ACAD_PLOTSTYLENAME
350
E
  3
ACAD_SCALELIST
350
47
  0
DICTIONARY
  5
D
102
{ACAD_REACTORS
330
C
102
}
330
C
100
AcDbDictionary
281
     1
  0
DICTIONARY
  5
1A
102
{ACAD_REACTORS
330
C
102
}
330
C
100
AcDbDictionary
281
     1
  3
Layout1
350
1E
  3
Layout2
350
26
  3
Model
350
22
  0
DICTIONARY
  5
17
102
{ACAD_REACTORS
330
C
102
}
330
C
100
AcDbDictionary
281
     1
  3
Standard
350
18
  0
DICTIONARY
  5
19
102
{ACAD_REACTORS
330
C
102
}
330
C
100
AcDbDictionary
281
     1
  0
ACDBDICTIONARYWDFLT
  5
E
102
{ACAD_REACTORS
330
C
102
}
330
C
100
AcDbDictionary
281
     1
  3
Normal
350
F
100
AcDbDictionaryWithDefault
340
F
  0
DICTIONARY
  5
47
102
{ACAD_REACTORS
330
C
102
}
330
C
100
AcDbDictionary
281
     1
  3
A0
350
48
  3
A1
350
49
  3
A2
350
4A
  3
A3
350
4B
  3
A4
350
4C
  3
A5
350
4D
  3
A6
350
4E
  3
A7
350
4F
  3
A8
350
50
  3
A9
350
51
  3
B0
350
52
  3
B1
350
53
  3
B2
350
54
  3
B3
350
55
  3
B4
350
56
  3
B5
350
57
  3
B6
350
58
  3
B7
350
59
  3
B8
350
5A
  3
B9
350
5B
  3
C0
350
5C
  3
C1
350
5D
  3
C2
350
5E
  3
C3
350
5F
  3
C4
350
60
  3
C5
350
61
  3
C6
350
62
  3
C7
350
63
  3
C8
350
64
  3
C9
350
65
  3
D0
350
66
  3
D1
350
67
  3
D2
350
68
  0
LAYOUT
  5
1E
102
{ACAD_REACTORS
330
1A
102
}
330
1A
100
AcDbPlotSettings
  1

  2
none_device
  4

  6

 40
0.0
 41
0.0
 42
0.0
 43
0.0
 44
0.0
 45
0.0
 46
0.0
 47
0.0
 48
0.0
 49
0.0
140
0.0
141
0.0
142
1.0
143
1.0
 70
   688
 72
     1
 73
     0
 74
     5
  7

 75
    16
147
1.0
148
0.0
149
0.0
100
AcDbLayout
  1
Layout1
 70
     1
 71
     1
 10
0.0
 20
0.0
 11
420.0
 21
297.0
 12
0.0
 22
0.0
 32
0.0
 14
1.0000000000E+20
 24
1.0000000000E+20
 34
1.0000000000E+20
 15
-1.0000000000E+20
 25
-1.0000000000E+20
 35
-1.0000000000E+20
146
0.0
 13
0.0
 23
0.0
 33
0.0
 16
1.0
 26
0.0
 36
0.0
 17
0.0
 27
1.0
 37
0.0
 76
     0
330
1B
  0
LAYOUT
  5
26
102
{ACAD_REACTORS
330
1A
102
}
330
1A
100
AcDbPlotSettings
  1

  2
none_device
  4

  6

 40
0.0
 41
0.0
 42
0.0
 43
0.0
 44
0.0
 45
0.0
 46
0.0
 47
0.0
 48
0.0
 49
0.0
140
0.0
141
0.0
142
1.0
143
1.0
 70
   688
 72
     1
 73
     0
 74
     5
  7

 75
    16
147
1.0
148
0.0
149
0.0
100
AcDbLayout
  1
Layout2
 70
     1
 71
     2
 10
0.0
 20
0.0
 11
0.0
 21
0.0
 12
0.0
 22
0.0
 32
0.0
 14
0.0
 24
0.0
 34
0.0
 15
0.0
 25
0.0
 35
0.0
146
0.0
 13
0.0
 23
0.0
 33
0.0
 16
1.0
 26
0.0
 36
0.0
 17
0.0
 27
1.0
 37
0.0
 76
     0
330
23
  0
LAYOUT
  5
22
102
{ACAD_REACTORS
330
1A
102
}
330
1A
100
AcDbPlotSettings
  1

  2
none_device
  4
Letter_(8.50_x_11.00_Inches)
  6

 40
6.35
 41
6.35
 42
6.35000508
 43
6.35000508
 44
215.9
 45
279.4
 46
0.0
 47
0.0
 48
0.0
 49
0.0
140
0.0
141
0.0
142
1.0
143
1.0
 70
  1712
 72
     1
 73
     0
 74
     0
  7

 75
     0
147
1.0
148
0.0
149
0.0
100
AcDbLayout
  1
Model
 70
     1
 71
     0
 10
0.0
 20
0.0
 11
279.4
 21
215.9
 12
0.0
 22
0.0
 32
0.0
 14
0.0
 24
0.0
 34
0.0
 15
279.4
 25
215.9
 35
0.0
146
0.0
 13
0.0
 23
0.0
 33
0.0
 16
1.0
 26
0.0
 36
0.0
 17
0.0
 27
1.0
 37
0.0
 76
     0
330
1F
331
29
  0
MLINESTYLE
  5
18
102
{ACAD_REACTORS
330
17
102
}
330
17
100
AcDbMlineStyle
  2
Standard
 70
     0
  3

 62
   256
 51
90.0
 52
90.0
 71
     2
 49
0.5
 62
   256
  6
BYLAYER
 49
-0.5
 62
   256
  6
BYLAYER
  0
ACDBPLACEHOLDER
  5
F
102
{ACAD_REACTORS
330
E
102
}
330
E
  0
SCALE
  5
48
102
{ACAD_REACTORS
330
47
102
}
330
47
100
AcDbScale
 70
     0
300
1:1
140
1.0
141
1.0
290
     1
  0
SCALE
  5
49
102
{ACAD_REACTORS
330
47
102
}
330
47
100
AcDbScale
 70
     0
300
1:2
140
1.0
141
2.0
290
     0
  0
SCALE
  5
4A
102
{ACAD_REACTORS
330
47
102
}
330
47
100
AcDbScale
 70
     0
300
1:4
140
1.0
141
4.0
290
     0
  0
SCALE
  5
4B
102
{ACAD_REACTORS
330
47
102
}
330
47
100
AcDbScale
 70
     0
300
1:5
140
1.0
141
5.0
290
     0
  0
SCALE
  5
4C
102
{ACAD_REACTORS
330
47
102
}
330
47
100
AcDbScale
 70
     0
300
1:8
140
1.0
141
8.0
290
     0
  0
SCALE
  5
4D
102
{ACAD_REACTORS
330
47
102
}
330
47
100
AcDbScale
 70
     0
300
1:10
140
1.0
141
10.0
290
     0
  0
SCALE
  5
4E
102
{ACAD_REACTORS
330
47
102
}
330
47
100
AcDbScale
 70
     0
300
1:16
140
1.0
141
16.0
290
     0
  0
SCALE
  5
4F
102
{ACAD_REACTORS
330
47
102
}
330
47
100
AcDbScale
 70
     0
300
1:20
140
1.0
141
20.0
290
     0
  0
SCALE
  5
50
102
{ACAD_REACTORS
330
47
102
}
330
47
100
AcDbScale
 70
     0
300
1:30
140
1.0
141
30.0
290
     0
  0
SCALE
  5
51
102
{ACAD_REACTORS
330
47
102
}
330
47
100
AcDbScale
 70
     0
300
1:40
140
1.0
141
40.0
290
     0
  0
SCALE
  5
52
102
{ACAD_REACTORS
330
47
102
}
330
47
100
AcDbScale
 70
     0
300
1:50
140
1.0
141
50.0
290
     0
  0
SCALE
  5
53
102
{ACAD_REACTORS
330
47
102
}
330
47
100
AcDbScale
 70
     0
300
1:100
140
1.0
141
100.0
290
     0
  0
SCALE
  5
54
102
{ACAD_REACTORS
330
47
102
}
330
47
100
AcDbScale
 70
     0
300
2:1
140
2.0
141
1.0
290
     0
  0
SCALE
  5
55
102
{ACAD_REACTORS
330
47
102
}
330
47
100
AcDbScale
 70
     0
300
4:1
140
4.0
141
1.0
290
     0
  0
SCALE
  5
56
102
{ACAD_REACTORS
330
47
102
}
330
47
100
AcDbScale
 70
     0
300
8:1
140
8.0
141
1.0
290
     0
  0
SCALE
  5
57
102
{ACAD_REACTORS
330
47
102
}
330
47
100
AcDbScale
 70
     0
300
10:1
140
10.0
141
1.0
290
     0
  0
SCALE
  5
58
102
{ACAD_REACTORS
330
47
102
}
330
47
100
AcDbScale
 70
     0
300
100:1
140
100.0
141
1.0
290
     0
  0
SCALE
  5
59
102
{ACAD_REACTORS
330
47
102
}
330
47
100
AcDbScale
 70
     0
300
1/128" = 1'-0"
140
0.0078125
141
12.0
290
     0
  0
SCALE
  5
5A
102
{ACAD_REACTORS
330
47
102
}
330
47
100
AcDbScale
 70
     0
300
1/64" = 1'-0"
140
0.015625
141
12.0
290
     0
  0
SCALE
  5
5B
102
{ACAD_REACTORS
330
47
102
}
330
47
100
AcDbScale
 70
     0
300
1/32" = 1'-0"
140
0.03125
141
12.0
290
     0
  0
SCALE
  5
5C
102
{ACAD_REACTORS
330
47
102
}
330
47
100
AcDbScale
 70
     0
300
1/16" = 1'-0"
140
0.0625
141
12.0
290
     0
  0
SCALE
  5
5D
102
{ACAD_REACTORS
330
47
102
}
330
47
100
AcDbScale
 70
     0
300
3/32" = 1'-0"
140
0.09375
141
12.0
290
     0
  0
SCALE
  5
5E
102
{ACAD_REACTORS
330
47
102
}
330
47
100
AcDbScale
 70
     0
300
1/8" = 1'-0"
140
0.125
141
12.0
290
     0
  0
SCALE
  5
5F
102
{ACAD_REACTORS
330
47
102
}
330
47
100
AcDbScale
 70
     0
300
3/16" = 1'-0"
140
0.1875
141
12.0
290
     0
  0
SCALE
  5
60
102
{ACAD_REACTORS
330
47
102
}
330
47
100
AcDbScale
 70
     0
300
1/4" = 1'-0"
140
0.25
141
12.0
290
     0
  0
SCALE
  5
61
102
{ACAD_REACTORS
330
47
102
}
330
47
100
AcDbScale
 70
     0
300
3/8" = 1'-0"
140
0.375
141
12.0
290
     0
  0
SCALE
  5
62
102
{ACAD_REACTORS
330
47
102
}
330
47
100
AcDbScale
 70
     0
300
1/2" = 1'-0"
140
0.5
141
12.0
290
     0
  0
SCALE
  5
63
102
{ACAD_REACTORS
330
47
102
}
330
47
100
AcDbScale
 70
     0
300
3/4" = 1'-0"
140
0.75
141
12.0
290
     0
  0
SCALE
  5
64
102
{ACAD_REACTORS
330
47
102
}
330
47
100
AcDbScale
 70
     0
300
1" = 1'-0"
140
1.0
141
12.0
290
     0
  0
SCALE
  5
65
102
{ACAD_REACTORS
330
47
102
}
330
47
100
AcDbScale
 70
     0
300
1-1/2" = 1'-0"
140
1.5
141
12.0
290
     0
  0
SCALE
  5
66
102
{ACAD_REACTORS
330
47
102
}
330
47
100
AcDbScale
 70
     0
300
3" = 1'-0"
140
3.0
141
12.0
290
     0
  0
SCALE
  5
67
102
{ACAD_REACTORS
330
47
102
}
330
47
100
AcDbScale
 70
     0
300
6" = 1'-0"
140
6.0
141
12.0
290
     0
  0
SCALE
  5
68
102
{ACAD_REACTORS
330
47
102
}
330
47
100
AcDbScale
 70
     0
300
1'-0" = 1'-0"
140
12.0
141
12.0
290
     0
  0
ENDSEC
  0
EOF
